  0
SECTION
  2
HEADER
  9
$ACADVER
  1
AC1009
  9
$INSBASE
 10
0.00
 20
0.00
 30
0.00
  9
$EXTMIN
 10
9.74
 20
16.20
 30
0.00
  9
$EXTMAX
 10
77.77
 20
61.06
 30
0.00
  9
$LIMMIN
 10
0.00
 20
0.00
  9
$LIMMAX
 10
12.00
 20
9.00
  9
$VIEWCTR
 10
6.21
 20
4.50
  9
$VIEWSIZE
 40
9.00
  9
$SNAPMODE
 70
0
  9
$SNAPUNIT
 10
9.00
 20
4.50
  9
$SNAPBASE
 10
0.00
 20
0.00
  9
$SNAPANG
 50
0.00
  9
$SNAPSTYLE
 70
0
  9
$SNAPISOPAIR
 70
0
  9
$GRIDMODE
 70
0
  9
$GRIDUNIT
 10
0.39
 20
0.39
  9
$ORTHOMODE
 70
0
  9
$REGENMODE
 70
1
  9
$FILLMODE
 70
1
  9
$QTEXTMODE
 70
0
  9
$DRAGMODE
 70
2
  9
$LTSCALE
 40
1.00
  9
$TEXTSIZE
 40
3.15
  9
$TRACEWID
 40
0.05
  9
$CLAYER
  8
0
  9
$LUNITS
 70
4
  9
$LUPREC
 70
2
  9
$AXISMODE
 70
0
  9
$AXISUNIT
 10
0.00
 20
0.00
  9
$SKETCHINC
 40
0.10
  9
$FILLETRAD
 40
0.20
  9
$AUNITS
 70
0
  9
$AUPREC
 70
2
  9
$TEXTSTYLE
  7
STANDARD
  9
$OSMODE
 70
0
  9
$ATTMODE
 70
0
  9
$MENU
  1
acad
  9
$DIMSCALE
 40
1.00
  9
$DIMASZ
 40
0.18
  9
$DIMEXO
 40
0.06
  9
$DIMDLI
 40
0.38
  9
$DIMEXE
 40
0.18
  9
$DIMTP
 40
0.00
  9
$DIMTM
 40
0.00
  9
$DIMTXT
 40
0.18
  9
$DIMCEN
 40
0.09
  9
$DIMTSZ
 40
0.00
  9
$DIMTOL
 70
0
  9
$DIMLIM
 70
0
  9
$DIMTIH
 70
1
  9
$DIMTOH
 70
1
  9
$DIMSE1
 70
0
  9
$DIMSE2
 70
0
  9
$DIMTAD
 70
0
  9
$LIMCHECK
 70
0
  9
$ELEVATION
 40
0.00
  9
$THICKNESS
 40
0.00
  9
$VIEWDIR
 10
0.00
 20
0.00
 30
1.00
  9
$BLIPMODE
 70
1
  9
$DIMZIN
 70
0
  9
$DIMRND
 40
0.00
  9
$DIMDLE
 40
0.00
  9
$DIMBLK
  1

  9
$COORDS
 70
1
  9
$CECOLOR
 62
256
  9
$USRTIMER
 70
1
  9
$SKPOLY
 70
0
  9
$ANGBASE
 50
0.00
  9
$ANGDIR
 70
0
  9
$PDMODE
 70
0
  9
$PDSIZE
 40
0.00
  9
$PLINEWID
 40
0.00
  9
$USERI1
 70
0
  9
$USERI2
 70
0
  9
$USERI3
 70
0
  9
$USERI4
 70
0
  9
$USERI5
 70
0
  9
$USERR1
 40
0.00
  9
$USERR2
 40
0.00
  9
$USERR3
 40
0.00
  9
$USERR4
 40
0.00
  9
$USERR5
 40
0.00
  9
$DIMALT
 70
0
  9
$DIMALTD
 70
2
  9
$DIMASO
 70
1
  9
$DIMSHO
 70
1
  9
$DIMPOST
  1

  9
$DIMAPOST
  1

  9
$DIMALTF
 40
25.40
  9
$DIMLFAC
 40
1.00
  9
$SPLINESEGS
 70
8
  9
$SPLFRAME
 70
0
  9
$ATTREQ
 70
1
  9
$ATTDIA
 70
0
  9
$CHAMFERA
 40
0.20
  9
$CHAMFERB
 40
0.20
  9
$MIRRTEXT
 70
1
  9
$UCSORG
 10
0.00
 20
0.00
 30
0.00
  9
$UCSXDIR
 10
1.00
 20
0.00
 30
0.00
  9
$UCSYDIR
 10
0.00
 20
1.00
 30
0.00
  9
$DIMTOFL
 70
0
  9
$DIMBLK1
  1

  9
$DIMBLK2
  1

  9
$DIMSAH
 70
0
  9
$DIMTIX
 70
0
  9
$DIMSOXD
 70
0
  9
$DIMTVP
 40
0.00
  9
$HANDLING
 70
0
  9
$SURFTAB1
 70
6
  9
$SURFTAB2
 70
6
  9
$SURFTYPE
 70
6
  9
$SURFU
 70
6
  9
$SURFV
 70
6
  9
$FLATLAND
 70
0
  9
$WORLDVIEW
 70
1
  9
$UNITMODE
 70
0
  9
$DIMSTYLE
  2
*UNNAMED
  9
$DIMCLRD
 70
0
  9
$DIMCLRE
 70
0
  9
$DIMCLRT
 70
0
  9
$SHADEDGE
 70
3
  9
$SHADEDIF
 70
70
  9
$PUCSORG
 10
0.00
 20
0.00
 30
0.00
  9
$PUCSXDIR
 10
1.00
 20
0.00
 30
0.00
  9
$PUCSYDIR
 10
0.00
 20
1.00
 30
0.00
  9
$TILEMODE
 70
1
  9
$PLIMCHECK
 70
0
  9
$PEXTMIN
 10
100000000000000000000.00
 20
100000000000000000000.00
 30
100000000000000000000.00
  9
$PEXTMAX
 10
-100000000000000000000.00
 20
-100000000000000000000.00
 30
-100000000000000000000.00
  9
$PLIMMIN
 10
0.00
 20
0.00
  9
$PLIMMAX
 10
12.00
 20
9.00
  9
$PINSBASE
 10
0.00
 20
0.00
 30
0.00
  9
$MAXACTVP
 70
16
  9
$DIMGAP
 40
0.09
  9
$PELEVATION
 40
0.00
  9
$VISRETAIN
 70
0
  0
ENDSEC
  0
SECTION
  2
TABLES
  0
TABLE
  2
APPID
 70
1
  0
APPID
  2
ACAD
 70
64
  0
ENDTAB
  0
TABLE
  2
DIMSTYLE
 70
0
  0
ENDTAB
  0
TABLE
  2
LTYPE
 70
9
  0
LTYPE
  2
CONTINUOUS
 70
64
  3
Solid line
 72
65
 73
0
 40
0.00
  0
LTYPE
  2
HIDDEN
 70
64
  3
_ _ _ _ _ _ _ _ _ _ _ _ _ _ 
 72
65
 73
2
 40
0.38
 49
0.25
 49
-0.13
  0
LTYPE
  2
DASHED
 70
64
  3
__ __ __ __ __ __ __ __ __ 
 72
65
 73
2
 40
0.75
 49
0.50
 49
-0.25
  0
LTYPE
  2
CENTER
 70
64
  3
____ _ ____ _ ____ _ ____ _ 
 72
65
 73
4
 40
2.00
 49
1.25
 49
-0.25
 49
0.25
 49
-0.25
  0
LTYPE
  2
PHANTOM
 70
64
  3
_____ _ _ _____ _ _ _____ _ _ 
 72
65
 73
6
 40
2.50
 49
1.25
 49
-0.25
 49
0.25
 49
-0.25
 49
0.25
 49
-0.25
  0
LTYPE
  2
DOT
 70
64
  3
...........................
 72
65
 73
2
 40
0.25
 49
0.00
 49
-0.25
  0
LTYPE
  2
DASHDOT
 70
64
  3
__ . __ . __ . __ . __ . __ . 
 72
65
 73
4
 40
1.00
 49
0.50
 49
-0.25
 49
0.00
 49
-0.25
  0
LTYPE
  2
DIVIDE
 70
64
  3
__ . . __ . . __ . . __ . . 
 72
65
 73
6
 40
1.25
 49
0.50
 49
-0.25
 49
0.00
 49
-0.25
 49
0.00
 49
-0.25
  0
LTYPE
  2
BORDER
 70
64
  3
__ __ . __ __ . __ __ . __ __ . 
 72
65
 73
6
 40
1.75
 49
0.50
 49
-0.25
 49
0.50
 49
-0.25
 49
0.00
 49
-0.25
  0
ENDTAB
  0
TABLE
  2
LAYER
 70
2
  0
LAYER
  2
0
 70
64
 62
7
  6
CONTINUOUS
  0
LAYER
  2
1
 70
64
 62
8
  6
CONTINUOUS
  0
ENDTAB
  0
TABLE
  2
STYLE
 70
4
  0
STYLE
  2
STANDARD
 70
64
 40
1.00
 41
1.00
 50
0.00
 71
0
 42
0.00
  3
txt
  4

  0
STYLE
  2
ITALIC
 70
64
 40
0.00
 41
0.00
 50
0.00
 71
0
 42
0.00
  3
ITALIC
  4

  0
STYLE
  2
SIMPLEX
 70
64
 40
0.00
 41
0.00
 50
0.00
 71
0
 42
0.00
  3
SIMPLEX
  4

  0
STYLE
  2
COMPLEX
 70
64
 40
0.00
 41
0.00
 50
0.00
 71
0
 42
0.00
  3
COMPLEX
  4

  0
ENDTAB
  0
TABLE
  2
VIEW
 70
0
  0
ENDTAB
  0
TABLE
  2
UCS
 70
0
  0
ENDTAB
  0
TABLE
  2
VPORT
 70
0
  0
ENDTAB
  0
ENDSEC
  0
SECTION
  2
BLOCKS
  0
BLOCK
  8
0
  2
LONGARROW
 70
0
 10
0.00
 20
0.00
 30
0.00
  3
LONGARROW
  0
SOLID
  8
1
  6
CONTINUOUS
 62
6
 10
0.00
 20
0.00
 30
0.00
 11
2.00
 21
-0.25
 31
0.00
 12
2.00
 22
0.25
 32
0.00
 13
2.00
 23
0.25
 33
0.00
  0
ENDBLK
  8
0
  0
ENDSEC
  0
SECTION
  2
ENTITIES
  0
POLYLINE
  8
1
  6
CONTINUOUS
 62
8
 66
1
 10
0.00
 20
0.00
 30
0.00
 70
1
  0
VERTEX
  8
0
 10
62.71
 20
30.06
 30
0.00
  0
VERTEX
  8
0
 10
62.71
 20
28.09
 30
0.00
  0
VERTEX
  8
0
 10
46.17
 20
28.09
 30
0.00
  0
VERTEX
  8
0
 10
46.17
 20
30.06
 30
0.00
  0
SEQEND
  8
1
  0
POLYLINE
  8
1
  6
CONTINUOUS
 62
8
 66
1
 10
0.00
 20
0.00
 30
0.00
 70
1
  0
VERTEX
  8
0
 10
74.44
 20
39.33
 30
0.00
  0
VERTEX
  8
0
 10
74.44
 20
19.33
 30
0.00
  0
VERTEX
  8
0
 10
63.04
 20
19.33
 30
0.00
  0
VERTEX
  8
0
 10
63.04
 20
39.33
 30
0.00
  0
SEQEND
  8
1
  0
POLYLINE
  8
1
  6
CONTINUOUS
 62
8
 66
1
 10
0.00
 20
0.00
 30
0.00
 70
1
  0
VERTEX
  8
0
 10
10.59
 20
39.33
 30
0.00
  0
VERTEX
  8
0
 10
10.59
 20
19.33
 30
0.00
  0
VERTEX
  8
0
 10
22.00
 20
19.33
 30
0.00
  0
VERTEX
  8
0
 10
22.00
 20
39.33
 30
0.00
  0
SEQEND
  8
1
  0
POLYLINE
  8
1
  6
CONTINUOUS
 62
8
 66
1
 10
0.00
 20
0.00
 30
0.00
 70
1
  0
VERTEX
  8
0
 10
22.33
 20
30.06
 30
0.00
  0
VERTEX
  8
0
 10
22.33
 20
28.09
 30
0.00
  0
VERTEX
  8
0
 10
38.87
 20
28.09
 30
0.00
  0
VERTEX
  8
0
 10
38.87
 20
30.06
 30
0.00
  0
SEQEND
  8
1
  0
CIRCLE
  8
1
  6
CONTINUOUS
 62
11
 10
42.52
 20
24.94
 30
0.00
 40
0.93
  0
CIRCLE
  8
1
  6
CONTINUOUS
 62
9
 10
42.52
 20
33.99
 30
0.00
 40
0.93
  0
LINE
  8
1
  6
CONTINUOUS
 62
11
 10
41.59
 20
34.05
 30
0.00
 11
41.58
 21
24.94
 31
0.00
  0
LINE
  8
1
  6
CONTINUOUS
 62
11
 10
43.45
 20
33.99
 30
0.00
 11
43.45
 21
24.94
 31
0.00
  0
ARC
  8
1
  6
CONTINUOUS
 62
8
 10
42.52
 20
28.74
 30
0.00
 40
3.71
 50
284.58
 51
75.42
  0
ARC
  8
1
  6
CONTINUOUS
 62
8
 10
42.52
 20
28.74
 30
0.00
 40
3.71
 50
104.55
 51
255.77
  0
CIRCLE
  8
1
  6
CONTINUOUS
 62
9
 10
52.40
 20
33.99
 30
0.00
 40
0.93
  0
CIRCLE
  8
1
  6
CONTINUOUS
 62
13
 10
42.52
 20
29.27
 30
0.00
 40
0.93
  0
CIRCLE
  8
1
  6
CONTINUOUS
 62
13
 10
60.63
 20
29.27
 30
0.00
 40
0.93
  0
LINE
  8
1
  6
CONTINUOUS
 62
13
 10
42.57
 20
28.34
 30
0.00
 11
60.63
 21
28.34
 31
0.00
  0
LINE
  8
1
  6
CONTINUOUS
 62
13
 10
42.62
 20
30.20
 30
0.00
 11
60.63
 21
30.21
 31
0.00
  0
LINE
  8
1
  6
CONTINUOUS
 62
9
 10
42.37
 20
33.07
 30
0.00
 11
52.40
 21
33.06
 31
0.00
  0
LINE
  8
1
  6
CONTINUOUS
 62
9
 10
42.70
 20
34.91
 30
0.00
 11
52.40
 21
34.93
 31
0.00
  0
LINE
  8
1
  6
CONTINUOUS
 62
8
 10
22.33
 20
30.06
 30
0.00
 11
42.08
 21
32.43
 31
0.00
  0
LINE
  8
1
  6
CONTINUOUS
 62
8
 10
62.71
 20
30.06
 30
0.00
 11
42.96
 21
32.43
 31
0.00
  0
LINE
  8
1
  6
CONTINUOUS
 62
8
 10
22.33
 20
28.09
 30
0.00
 11
41.95
 21
25.07
 31
0.00
  0
LINE
  8
1
  6
CONTINUOUS
 62
8
 10
62.71
 20
28.09
 30
0.00
 11
43.09
 21
25.07
 31
0.00
  0
INSERT
  8
1
  6
CONTINUOUS
 62
6
  2
LONGARROW
 10
42.52
 20
24.94
 30
0.00
 41
0.63
 42
0.63
 50
223.12
  0
POLYLINE
  8
1
  6
CONTINUOUS
 62
6
 66
1
 10
0.00
 20
0.00
 30
0.00
  0
VERTEX
  8
0
 10
42.52
 20
24.94
 30
0.00
  0
VERTEX
  8
0
 10
37.50
 20
20.24
 30
0.00
  0
VERTEX
  8
0
 10
33.71
 20
20.24
 30
0.00
  0
VERTEX
  8
0
 10
31.83
 20
20.24
 30
0.00
  0
SEQEND
  8
1
  0
TEXT
  8
1
 62
6
 10
19.14
 20
22.45
 30
-0.00
 40
1.26
  1
Roll Centre
 41
0.60
  0
TEXT
  8
1
 62
6
 10
19.14
 20
20.56
 30
-0.00
 40
1.26
  1
Link Bearing  (2 row)
 41
0.60
  0
INSERT
  8
1
  6
CONTINUOUS
 62
6
  2
LONGARROW
 10
47.92
 20
34.92
 30
0.00
 41
0.63
 42
0.63
 50
66.80
  0
POLYLINE
  8
1
  6
CONTINUOUS
 62
6
 66
1
 10
0.00
 20
0.00
 30
0.00
  0
VERTEX
  8
0
 10
47.92
 20
34.92
 30
0.00
  0
VERTEX
  8
0
 10
50.19
 20
40.22
 30
0.00
  0
VERTEX
  8
0
 10
52.56
 20
40.22
 30
0.00
  0
VERTEX
  8
0
 10
53.22
 20
40.32
 30
0.00
  0
VERTEX
  8
0
 10
55.11
 20
40.32
 30
0.00
  0
SEQEND
  8
1
  0
TEXT
  8
1
 62
6
 10
55.74
 20
39.69
 30
-0.00
 40
1.26
  1
Upper Link
 41
0.60
  0
INSERT
  8
1
  6
CONTINUOUS
 62
6
  2
LONGARROW
 10
49.25
 20
29.05
 30
0.00
 41
0.63
 42
0.63
 50
283.61
  0
POLYLINE
  8
1
  6
CONTINUOUS
 62
6
 66
1
 10
0.00
 20
0.00
 30
0.00
  0
VERTEX
  8
0
 10
49.25
 20
29.05
 30
0.00
  0
VERTEX
  8
0
 10
52.18
 20
16.93
 30
0.00
  0
VERTEX
  8
0
 10
55.31
 20
16.83
 30
0.00
  0
VERTEX
  8
0
 10
57.20
 20
16.83
 30
0.00
  0
SEQEND
  8
1
  0
TEXT
  8
1
 62
6
 10
57.83
 20
16.20
 30
-0.00
 40
1.26
  1
Lower Link
 41
0.60
  0
INSERT
  8
1
  6
CONTINUOUS
 62
6
  2
LONGARROW
 10
42.52
 20
29.27
 30
0.00
 41
0.63
 42
0.63
 50
134.79
  0
POLYLINE
  8
1
  6
CONTINUOUS
 62
6
 66
1
 10
0.00
 20
0.00
 30
0.00
  0
VERTEX
  8
0
 10
42.52
 20
29.27
 30
0.00
  0
VERTEX
  8
0
 10
34.28
 20
37.57
 30
0.00
  0
VERTEX
  8
0
 10
30.97
 20
37.57
 30
0.00
  0
VERTEX
  8
0
 10
29.08
 20
37.57
 30
0.00
  0
SEQEND
  8
1
  0
TEXT
  8
1
 62
6
 10
20.58
 20
37.86
 30
-0.00
 40
1.26
  1
Rose Joint
 41
0.60
  0
INSERT
  8
1
  6
CONTINUOUS
 62
6
  2
LONGARROW
 10
42.52
 20
33.99
 30
0.00
 41
0.63
 42
0.63
 50
127.28
  0
POLYLINE
  8
1
  6
CONTINUOUS
 62
6
 66
1
 10
0.00
 20
0.00
 30
0.00
  0
VERTEX
  8
0
 10
42.52
 20
33.99
 30
0.00
  0
VERTEX
  8
0
 10
36.84
 20
41.45
 30
0.00
  0
VERTEX
  8
0
 10
32.86
 20
42.40
 30
0.00
  0
VERTEX
  8
0
 10
30.97
 20
42.40
 30
0.00
  0
SEQEND
  8
1
  0
TEXT
  8
1
 62
6
 10
21.28
 20
41.77
 30
-0.00
 40
1.26
  1
Rose joint
 41
0.60
  0
INSERT
  8
1
  6
CONTINUOUS
 62
6
  2
LONGARROW
 10
52.40
 20
33.99
 30
0.00
 41
0.63
 42
0.63
 50
41.41
  0
POLYLINE
  8
1
  6
CONTINUOUS
 62
6
 66
1
 10
0.00
 20
0.00
 30
0.00
  0
VERTEX
  8
0
 10
52.40
 20
33.99
 30
0.00
  0
VERTEX
  8
0
 10
54.74
 20
36.06
 30
0.00
  0
VERTEX
  8
0
 10
56.63
 20
36.06
 30
0.00
  0
SEQEND
  8
1
  0
TEXT
  8
1
 62
6
 10
57.26
 20
35.43
 30
-0.00
 40
1.26
  1
Chassis Mount
 41
0.60
  0
TEXT
  8
1
 62
6
 10
57.26
 20
33.54
 30
-0.00
 40
1.26
  1
Rose Joint
 41
0.60
  0
INSERT
  8
1
  6
CONTINUOUS
 62
6
  2
LONGARROW
 10
60.63
 20
29.27
 30
0.00
 41
0.63
 42
0.63
 50
274.40
  0
POLYLINE
  8
1
  6
CONTINUOUS
 62
6
 66
1
 10
0.00
 20
0.00
 30
0.00
  0
VERTEX
  8
0
 10
60.63
 20
29.27
 30
0.00
  0
VERTEX
  8
0
 10
61.18
 20
22.13
 30
0.00
  0
VERTEX
  8
0
 10
65.73
 20
22.13
 30
0.00
  0
VERTEX
  8
0
 10
67.62
 20
22.13
 30
0.00
  0
SEQEND
  8
1
  0
TEXT
  8
1
 62
6
 10
65.88
 20
22.64
 30
-0.00
 40
1.26
  1
Chassis Mount
 41
0.60
  0
TEXT
  8
1
 62
6
 10
65.88
 20
20.75
 30
-0.00
 40
1.26
  1
Rose Joint
 41
0.60
  0
POLYLINE
  8
1
  6
CONTINUOUS
 62
8
 66
1
 10
0.00
 20
0.00
 30
0.00
 70
1
  0
VERTEX
  8
0
 10
52.37
 20
33.87
 30
0.00
  0
VERTEX
  8
0
 10
51.16
 20
36.62
 30
0.00
  0
VERTEX
  8
0
 10
54.00
 20
36.62
 30
0.00
  0
SEQEND
  8
1
  0
POLYLINE
  8
1
  6
CONTINUOUS
 62
8
 66
1
 10
0.00
 20
0.00
 30
0.00
 70
1
  0
VERTEX
  8
0
 10
60.60
 20
29.01
 30
0.00
  0
VERTEX
  8
0
 10
59.38
 20
31.76
 30
0.00
  0
VERTEX
  8
0
 10
62.22
 20
31.76
 30
0.00
  0
SEQEND
  8
1
  0
TEXT
  8
1
 62
8
 10
21.07
 20
57.92
 30
-0.00
 40
3.15
  1
Mallock Wobbly link 
 41
0.60
  0
TEXT
  8
1
 62
8
 10
9.74
 20
53.19
 30
-0.00
 40
3.15
  1
(in USA called Jaccobs Ladder)
 41
0.60
  0
ENDSEC
  0
EOF
